ISO-10303-21;
HEADER;
FILE_DESCRIPTION (( 'STEP AP203' ),
    '1' );
FILE_NAME ('Q-QZWP-R4-12.7-633-M.STEP',
    '2020-12-23T01:24:09',
    ( '' ),
    ( '' ),
    'SwSTEP 2.0',
    'SolidWorks 2020',
    '' );
FILE_SCHEMA (( 'CONFIG_CONTROL_DESIGN' ));
ENDSEC;

DATA;
#1 = CALENDAR_DATE ( 2020, 23, 12 ) ;
#2 = DIRECTION ( 'NONE',  ( -1.000000000000000000, 0.000000000000000000, -0.000000000000000000 ) ) ;
#3 = DIRECTION ( 'NONE',  ( -1.000000000000000000, -0.000000000000000000, -0.000000000000000000 ) ) ;
#4 = CIRCLE ( 'NONE', #86, 12.69999999999999929 ) ;
#5 = CYLINDRICAL_SURFACE ( 'NONE', #147, 12.69999999999999929 ) ;
#6 = ADVANCED_FACE ( 'NONE', ( #73 ), #97, .F. ) ;
#7 = CARTESIAN_POINT ( 'NONE',  ( -1.614212418857619014, 0.000000000000000000, 0.000000000000000000 ) ) ;
#8 = CARTESIAN_POINT ( 'NONE',  ( -1.614212418857619014, 0.000000000000000000, 0.000000000000000000 ) ) ;
#9 = VECTOR ( 'NONE', #12, 1000.000000000000000 ) ;
#10 = EDGE_CURVE ( 'NONE', #168, #61, #15, .T. ) ;
#11 = EDGE_CURVE ( 'NONE', #61, #168, #243, .T. ) ;
#12 = DIRECTION ( 'NONE',  ( -1.000000000000000000, -0.000000000000000000, -0.000000000000000000 ) ) ;
#13 = ORIENTED_EDGE ( 'NONE', *, *, #154, .F. ) ;
#14 = ORIENTED_EDGE ( 'NONE', *, *, #11, .T. ) ;
#15 = CIRCLE ( 'NONE', #204, 12.69999999999999929 ) ;
#16 = COORDINATED_UNIVERSAL_TIME_OFFSET ( 8, 0, .AHEAD. ) ;
#17 = ORIENTED_EDGE ( 'NONE', *, *, #11, .F. ) ;
#18 = PERSON_AND_ORGANIZATION_ROLE ( 'creator' ) ;
#19 = CARTESIAN_POINT ( 'NONE',  ( -1.614212418857619014, 7.776507174585692163E-16, -6.349999999999999645 ) ) ;
#20 = PRODUCT_DEFINITION_FORMATION_WITH_SPECIFIED_SOURCE ( 'ANY', '', #300, .NOT_KNOWN. ) ;
#21 = LOCAL_TIME ( 9, 24, 9.000000000000000000, #98 ) ;
#22 = ORIENTED_EDGE ( 'NONE', *, *, #60, .T. ) ;
#23 = CARTESIAN_POINT ( 'NONE',  ( -2.999999999999999556, 7.776507174585692163E-16, -6.349999999999999645 ) ) ;
#24 = DIRECTION ( 'NONE',  ( 0.000000000000000000, 0.000000000000000000, -1.000000000000000000 ) ) ;
#25 = CARTESIAN_POINT ( 'NONE',  ( -1.614212418857619014, 0.000000000000000000, 6.349999999999999645 ) ) ;
#26 = EDGE_CURVE ( 'NONE', #299, #39, #313, .T. ) ;
#27 = DIRECTION ( 'NONE',  ( 0.000000000000000000, 0.000000000000000000, 1.000000000000000000 ) ) ;
#28 = CARTESIAN_POINT ( 'NONE',  ( -3.000000000000000000, 1.555301434917138433E-15, -12.69999999999999929 ) ) ;
#29 = DIRECTION ( 'NONE',  ( -1.000000000000000000, -0.000000000000000000, -0.000000000000000000 ) ) ;
#30 = AXIS2_PLACEMENT_3D ( 'NONE', #135, #57, #24 ) ;
#31 = CARTESIAN_POINT ( 'NONE',  ( -3.000000000000000000, 0.000000000000000000, 12.69999999999999929 ) ) ;
#32 = DIRECTION ( 'NONE',  ( 0.000000000000000000, 0.000000000000000000, 1.000000000000000000 ) ) ;
#33 = APPLICATION_PROTOCOL_DEFINITION ( 'international standard', 'config_control_design', 1994, #136 ) ;
#34 = ORIENTED_EDGE ( 'NONE', *, *, #134, .T. ) ;
#35 = AXIS2_PLACEMENT_3D ( 'NONE', #233, #254, #234 ) ;
#36 = ORIENTED_EDGE ( 'NONE', *, *, #213, .F. ) ;
#37 = ORIENTED_EDGE ( 'NONE', *, *, #239, .F. ) ;
#38 = PERSON_AND_ORGANIZATION ( #52, #186 ) ;
#39 = VERTEX_POINT ( 'NONE', #23 ) ;
#40 = VECTOR ( 'NONE', #151, 1000.000000000000000 ) ;
#41 = COORDINATED_UNIVERSAL_TIME_OFFSET ( 8, 0, .AHEAD. ) ;
#42 = FACE_BOUND ( 'NONE', #115, .T. ) ;
#43 = CARTESIAN_POINT ( 'NONE',  ( 3.000000000000000000, 12.69999999999999929, 0.000000000000000000 ) ) ;
#44 = ORIENTED_EDGE ( 'NONE', *, *, #88, .F. ) ;
#45 = CC_DESIGN_PERSON_AND_ORGANIZATION_ASSIGNMENT ( #77, #249, ( #20 ) ) ;
#46 = CIRCLE ( 'NONE', #273, 6.349999999999999645 ) ;
#47 = DATE_AND_TIME ( #120, #125 ) ;
#48 = ORIENTED_EDGE ( 'NONE', *, *, #75, .F. ) ;
#49 = EDGE_CURVE ( 'NONE', #173, #90, #166, .T. ) ;
#50 = DIRECTION ( 'NONE',  ( 0.000000000000000000, 0.000000000000000000, -1.000000000000000000 ) ) ;
#51 = CARTESIAN_POINT ( 'NONE',  ( -1.614212418857619014, 0.000000000000000000, 0.000000000000000000 ) ) ;
#52 = PERSON ( 'UNSPECIFIED', 'UNSPECIFIED', 'UNSPECIFIED', ('UNSPECIFIED'), ('UNSPECIFIED'), ('UNSPECIFIED') ) ;
#53 = AXIS2_PLACEMENT_3D ( 'NONE', #43, #251, #124 ) ;
#54 = DIRECTION ( 'NONE',  ( 0.000000000000000000, 0.000000000000000000, 1.000000000000000000 ) ) ;
#55 = CARTESIAN_POINT ( 'NONE',  ( 3.000000000000000888, 0.000000000000000000, 6.349999999999999645 ) ) ;
#56 = ADVANCED_FACE ( 'NONE', ( #179 ), #329, .F. ) ;
#57 = DIRECTION ( 'NONE',  ( 1.000000000000000000, 0.000000000000000000, 0.000000000000000000 ) ) ;
#58 = CARTESIAN_POINT ( 'NONE',  ( -1.614212418857619014, 0.000000000000000000, 0.000000000000000000 ) ) ;
#59 = CIRCLE ( 'NONE', #118, 6.349999999999999645 ) ;
#60 = EDGE_CURVE ( 'NONE', #299, #250, #131, .T. ) ;
#61 = VERTEX_POINT ( 'NONE', #95 ) ;
#62 = ORIENTED_EDGE ( 'NONE', *, *, #207, .F. ) ;
#63 = LOCAL_TIME ( 9, 24, 9.000000000000000000, #253 ) ;
#64 = ORIENTED_EDGE ( 'NONE', *, *, #49, .F. ) ;
#65 = CC_DESIGN_PERSON_AND_ORGANIZATION_ASSIGNMENT ( #38, #206, ( #295 ) ) ;
#66 = ORIENTED_EDGE ( 'NONE', *, *, #154, .T. ) ;
#67 = DIRECTION ( 'NONE',  ( 0.000000000000000000, 0.000000000000000000, 1.000000000000000000 ) ) ;
#68 = CARTESIAN_POINT ( 'NONE',  ( -1.614212418857619014, 7.776507174585692163E-16, -6.349999999999999645 ) ) ;
#69 = CALENDAR_DATE ( 2020, 23, 12 ) ;
#70 = PRODUCT_DEFINITION ( 'UNKNOWN', '', #20, #109 ) ;
#71 = DIRECTION ( 'NONE',  ( -0.000000000000000000, 0.000000000000000000, 1.000000000000000000 ) ) ;
#72 = DATE_TIME_ROLE ( 'creation_date' ) ;
#73 = FACE_OUTER_BOUND ( 'NONE', #326, .T. ) ;
#74 = ADVANCED_FACE ( 'NONE', ( #183, #279 ), #119, .F. ) ;
#75 = EDGE_CURVE ( 'NONE', #248, #90, #201, .T. ) ;
#76 = AXIS2_PLACEMENT_3D ( 'NONE', #240, #3, #264 ) ;
#77 = PERSON_AND_ORGANIZATION ( #52, #186 ) ;
#78 = DIRECTION ( 'NONE',  ( 0.000000000000000000, 0.000000000000000000, -1.000000000000000000 ) ) ;
#79 = CYLINDRICAL_SURFACE ( 'NONE', #112, 6.349999999999999645 ) ;
#80 = DIRECTION ( 'NONE',  ( 0.000000000000000000, 0.000000000000000000, 1.000000000000000000 ) ) ;
#81 = LOCAL_TIME ( 9, 24, 9.000000000000000000, #41 ) ;
#82 = LINE ( 'NONE', #187, #221 ) ;
#83 = CARTESIAN_POINT ( 'NONE',  ( 3.000000000000000888, 0.000000000000000000, 0.000000000000000000 ) ) ;
#84 = ADVANCED_FACE ( 'NONE', ( #174, #42 ), #150, .F. ) ;
#85 = CARTESIAN_POINT ( 'NONE',  ( -1.614212418857619014, 0.000000000000000000, 0.000000000000000000 ) ) ;
#86 = AXIS2_PLACEMENT_3D ( 'NONE', #106, #318, #27 ) ;
#87 = ORIENTED_EDGE ( 'NONE', *, *, #10, .F. ) ;
#88 = EDGE_CURVE ( 'NONE', #250, #299, #322, .T. ) ;
#89 =( NAMED_UNIT ( * ) PLANE_ANGLE_UNIT ( ) SI_UNIT ( $, .RADIAN. ) );
#90 = VERTEX_POINT ( 'NONE', #333 ) ;
#91 = EDGE_LOOP ( 'NONE', ( #269, #93 ) ) ;
#92 = AXIS2_PLACEMENT_3D ( 'NONE', #8, #189, #54 ) ;
#93 = ORIENTED_EDGE ( 'NONE', *, *, #190, .F. ) ;
#94 = UNCERTAINTY_MEASURE_WITH_UNIT (LENGTH_MEASURE( 1.000000000000000082E-05 ), #244, 'distance_accuracy_value', 'NONE');
#95 = CARTESIAN_POINT ( 'NONE',  ( 3.000000000000000000, 1.555301434917138433E-15, -12.69999999999999929 ) ) ;
#96 = APPROVAL_STATUS ( 'not_yet_approved' ) ;
#97 = PLANE ( 'NONE',  #181 ) ;
#98 = COORDINATED_UNIVERSAL_TIME_OFFSET ( 8, 0, .AHEAD. ) ;
#99 = DIRECTION ( 'NONE',  ( 0.000000000000000000, 0.000000000000000000, -1.000000000000000000 ) ) ;
#100 = PERSON_AND_ORGANIZATION ( #52, #186 ) ;
#101 = DIRECTION ( 'NONE',  ( 1.000000000000000000, 0.000000000000000000, 0.000000000000000000 ) ) ;
#102 = DATE_AND_TIME ( #1, #319 ) ;
#103 = ORIENTED_EDGE ( 'NONE', *, *, #278, .T. ) ;
#104 = CARTESIAN_POINT ( 'NONE',  ( -1.614212418857619014, 1.555301434917138433E-15, -12.69999999999999929 ) ) ;
#105 = DIRECTION ( 'NONE',  ( -1.000000000000000000, -0.000000000000000000, -0.000000000000000000 ) ) ;
#106 = CARTESIAN_POINT ( 'NONE',  ( -3.000000000000000000, 0.000000000000000000, 0.000000000000000000 ) ) ;
#107 = DIRECTION ( 'NONE',  ( -1.000000000000000000, -0.000000000000000000, -0.000000000000000000 ) ) ;
#108 = LINE ( 'NONE', #25, #274 ) ;
#109 = DESIGN_CONTEXT ( 'detailed design', #188, 'design' ) ;
#110 = DIRECTION ( 'NONE',  ( -1.000000000000000000, -0.000000000000000000, -0.000000000000000000 ) ) ;
#111 = ADVANCED_FACE ( 'NONE', ( #205 ), #309, .T. ) ;
#112 = AXIS2_PLACEMENT_3D ( 'NONE', #51, #218, #235 ) ;
#113 = ORIENTED_EDGE ( 'NONE', *, *, #75, .T. ) ;
#114 = PERSON_AND_ORGANIZATION ( #52, #186 ) ;
#115 = EDGE_LOOP ( 'NONE', ( #171, #158 ) ) ;
#116 = VERTEX_POINT ( 'NONE', #28 ) ;
#117 = ORIENTED_EDGE ( 'NONE', *, *, #88, .T. ) ;
#118 = AXIS2_PLACEMENT_3D ( 'NONE', #83, #160, #315 ) ;
#119 = PLANE ( 'NONE',  #211 ) ;
#120 = CALENDAR_DATE ( 2020, 23, 12 ) ;
#121 = DIRECTION ( 'NONE',  ( 0.000000000000000000, 0.000000000000000000, 1.000000000000000000 ) ) ;
#122 = EDGE_CURVE ( 'NONE', #248, #127, #59, .T. ) ;
#123 = PERSON_AND_ORGANIZATION_ROLE ( 'creator' ) ;
#124 = DIRECTION ( 'NONE',  ( -0.000000000000000000, 0.000000000000000000, 1.000000000000000000 ) ) ;
#125 = LOCAL_TIME ( 9, 24, 9.000000000000000000, #16 ) ;
#126 = APPROVAL_DATE_TIME ( #303, #165 ) ;
#127 = VERTEX_POINT ( 'NONE', #55 ) ;
#128 = ADVANCED_FACE ( 'NONE', ( #263 ), #138, .F. ) ;
#129 = CARTESIAN_POINT ( 'NONE',  ( 1.500000000000000888, 0.000000000000000000, 0.000000000000000000 ) ) ;
#130 = CARTESIAN_POINT ( 'NONE',  ( -2.999999999999999556, 0.000000000000000000, 6.349999999999999645 ) ) ;
#131 = CIRCLE ( 'NONE', #306, 6.349999999999999645 ) ;
#132 = FACE_OUTER_BOUND ( 'NONE', #142, .T. ) ;
#133 = CARTESIAN_POINT ( 'NONE',  ( 3.000000000000000888, 7.776507174585692163E-16, -6.349999999999999645 ) ) ;
#134 = EDGE_CURVE ( 'NONE', #153, #39, #327, .T. ) ;
#135 = CARTESIAN_POINT ( 'NONE',  ( -1.500000000000000444, 6.349999999999999645, 0.000000000000000000 ) ) ;
#136 = APPLICATION_CONTEXT ( 'configuration controlled 3d designs of mechanical parts and assemblies' ) ;
#137 = AXIS2_PLACEMENT_3D ( 'NONE', #281, #230, #99 ) ;
#138 = PLANE ( 'NONE',  #30 ) ;
#139 = CC_DESIGN_APPROVAL ( #172, ( #295 ) ) ;
#140 =( NAMED_UNIT ( * ) SI_UNIT ( $, .STERADIAN. ) SOLID_ANGLE_UNIT ( ) );
#141 = MECHANICAL_CONTEXT ( 'NONE', #136, 'mechanical' ) ;
#142 = EDGE_LOOP ( 'NONE', ( #180, #14, #103, #37 ) ) ;
#143 = EDGE_LOOP ( 'NONE', ( #310, #144, #13, #169 ) ) ;
#144 = ORIENTED_EDGE ( 'NONE', *, *, #195, .T. ) ;
#145 = ORIENTED_EDGE ( 'NONE', *, *, #213, .T. ) ;
#146 = EDGE_LOOP ( 'NONE', ( #44, #223 ) ) ;
#147 = AXIS2_PLACEMENT_3D ( 'NONE', #58, #105, #214 ) ;
#148 = APPROVAL_DATE_TIME ( #178, #156 ) ;
#149 = ADVANCED_FACE ( 'NONE', ( #167 ), #79, .F. ) ;
#150 = PLANE ( 'NONE',  #53 ) ;
#151 = DIRECTION ( 'NONE',  ( -1.000000000000000000, -0.000000000000000000, -0.000000000000000000 ) ) ;
#152 = PERSON_AND_ORGANIZATION ( #52, #186 ) ;
#153 = VERTEX_POINT ( 'NONE', #130 ) ;
#154 = EDGE_CURVE ( 'NONE', #324, #116, #155, .T. ) ;
#155 = CIRCLE ( 'NONE', #76, 12.69999999999999929 ) ;
#156 = APPROVAL ( #280, 'UNSPECIFIED' ) ;
#157 = PERSON_AND_ORGANIZATION ( #52, #186 ) ;
#158 = ORIENTED_EDGE ( 'NONE', *, *, #122, .T. ) ;
#159 = DIRECTION ( 'NONE',  ( -1.000000000000000000, -0.000000000000000000, -0.000000000000000000 ) ) ;
#160 = DIRECTION ( 'NONE',  ( -1.000000000000000000, -0.000000000000000000, -0.000000000000000000 ) ) ;
#161 = AXIS2_PLACEMENT_3D ( 'NONE', #316, #164, #80 ) ;
#162 = CARTESIAN_POINT ( 'NONE',  ( 3.000000000000000000, 0.000000000000000000, 12.69999999999999929 ) ) ;
#163 = LINE ( 'NONE', #104, #9 ) ;
#164 = DIRECTION ( 'NONE',  ( -1.000000000000000000, -0.000000000000000000, -0.000000000000000000 ) ) ;
#165 = APPROVAL ( #96, 'UNSPECIFIED' ) ;
#166 = CIRCLE ( 'NONE', #265, 6.349999999999999645 ) ;
#167 = FACE_OUTER_BOUND ( 'NONE', #298, .T. ) ;
#168 = VERTEX_POINT ( 'NONE', #162 ) ;
#169 = ORIENTED_EDGE ( 'NONE', *, *, #278, .F. ) ;
#170 = VECTOR ( 'NONE', #304, 1000.000000000000000 ) ;
#171 = ORIENTED_EDGE ( 'NONE', *, *, #199, .T. ) ;
#172 = APPROVAL ( #257, 'UNSPECIFIED' ) ;
#173 = VERTEX_POINT ( 'NONE', #291 ) ;
#174 = FACE_OUTER_BOUND ( 'NONE', #301, .T. ) ;
#175 = VECTOR ( 'NONE', #237, 1000.000000000000000 ) ;
#176 = ADVANCED_BREP_SHAPE_REPRESENTATION ( 'Q-QZWP-R4-12.7-633-M', ( #241, #331 ), #288 ) ;
#177 = DIRECTION ( 'NONE',  ( -1.000000000000000000, -0.000000000000000000, -0.000000000000000000 ) ) ;
#178 = DATE_AND_TIME ( #209, #63 ) ;
#179 = FACE_OUTER_BOUND ( 'NONE', #198, .T. ) ;
#180 = ORIENTED_EDGE ( 'NONE', *, *, #195, .F. ) ;
#181 = AXIS2_PLACEMENT_3D ( 'NONE', #276, #2, #71 ) ;
#182 = SHAPE_DEFINITION_REPRESENTATION ( #277, #176 ) ;
#183 = FACE_BOUND ( 'NONE', #91, .T. ) ;
#184 = CARTESIAN_POINT ( 'NONE',  ( -1.614212418857619014, 0.000000000000000000, 6.349999999999999645 ) ) ;
#185 = FACE_OUTER_BOUND ( 'NONE', #258, .T. ) ;
#186 = ORGANIZATION ( 'UNSPECIFIED', 'UNSPECIFIED', '' ) ;
#187 = CARTESIAN_POINT ( 'NONE',  ( -1.614212418857619014, 0.000000000000000000, 12.69999999999999929 ) ) ;
#188 = APPLICATION_CONTEXT ( 'configuration controlled 3d designs of mechanical parts and assemblies' ) ;
#189 = DIRECTION ( 'NONE',  ( -1.000000000000000000, -0.000000000000000000, -0.000000000000000000 ) ) ;
#190 = EDGE_CURVE ( 'NONE', #39, #153, #246, .T. ) ;
#191 = CYLINDRICAL_SURFACE ( 'NONE', #197, 6.349999999999999645 ) ;
#192 = APPLICATION_PROTOCOL_DEFINITION ( 'international standard', 'config_control_design', 1994, #188 ) ;
#193 = ORIENTED_EDGE ( 'NONE', *, *, #328, .F. ) ;
#194 = ORIENTED_EDGE ( 'NONE', *, *, #328, .T. ) ;
#195 = EDGE_CURVE ( 'NONE', #61, #116, #163, .T. ) ;
#196 = ORIENTED_EDGE ( 'NONE', *, *, #26, .F. ) ;
#197 = AXIS2_PLACEMENT_3D ( 'NONE', #85, #292, #286 ) ;
#198 = EDGE_LOOP ( 'NONE', ( #196, #22, #283, #34 ) ) ;
#199 = EDGE_CURVE ( 'NONE', #127, #248, #293, .T. ) ;
#200 = EDGE_LOOP ( 'NONE', ( #117, #302, #335, #62 ) ) ;
#201 = LINE ( 'NONE', #19, #170 ) ;
#202 = APPROVAL_DATE_TIME ( #247, #172 ) ;
#203 = CARTESIAN_POINT ( 'NONE',  ( 3.000000000000000000, 0.000000000000000000, 0.000000000000000000 ) ) ;
#204 = AXIS2_PLACEMENT_3D ( 'NONE', #203, #159, #121 ) ;
#205 = FACE_OUTER_BOUND ( 'NONE', #143, .T. ) ;
#206 = PERSON_AND_ORGANIZATION_ROLE ( 'classification_officer' ) ;
#207 = EDGE_CURVE ( 'NONE', #250, #153, #108, .T. ) ;
#208 = ORIENTED_EDGE ( 'NONE', *, *, #122, .F. ) ;
#209 = CALENDAR_DATE ( 2020, 23, 12 ) ;
#210 = DIRECTION ( 'NONE',  ( 0.000000000000000000, 0.000000000000000000, 1.000000000000000000 ) ) ;
#211 = AXIS2_PLACEMENT_3D ( 'NONE', #227, #285, #50 ) ;
#212 = DIRECTION ( 'NONE',  ( -1.000000000000000000, -0.000000000000000000, -0.000000000000000000 ) ) ;
#213 = EDGE_CURVE ( 'NONE', #127, #173, #219, .T. ) ;
#214 = DIRECTION ( 'NONE',  ( 0.000000000000000000, 0.000000000000000000, 1.000000000000000000 ) ) ;
#215 = CARTESIAN_POINT ( 'NONE',  ( -1.500000000000000444, 0.000000000000000000, 6.349999999999999645 ) ) ;
#216 = APPROVAL_PERSON_ORGANIZATION ( #275, #156, #308 ) ;
#217 = ADVANCED_FACE ( 'NONE', ( #321 ), #191, .F. ) ;
#218 = DIRECTION ( 'NONE',  ( -1.000000000000000000, -0.000000000000000000, -0.000000000000000000 ) ) ;
#219 = LINE ( 'NONE', #184, #175 ) ;
#220 = CARTESIAN_POINT ( 'NONE',  ( -1.500000000000000444, 7.776507174585692163E-16, -6.349999999999999645 ) ) ;
#221 = VECTOR ( 'NONE', #110, 1000.000000000000000 ) ;
#222 = CARTESIAN_POINT ( 'NONE',  ( 0.000000000000000000, 0.000000000000000000, 0.000000000000000000 ) ) ;
#223 = ORIENTED_EDGE ( 'NONE', *, *, #60, .F. ) ;
#224 = AXIS2_PLACEMENT_3D ( 'NONE', #289, #107, #260 ) ;
#225 = ADVANCED_FACE ( 'NONE', ( #132 ), #5, .T. ) ;
#226 = CC_DESIGN_SECURITY_CLASSIFICATION ( #295, ( #20 ) ) ;
#227 = CARTESIAN_POINT ( 'NONE',  ( -3.000000000000000000, 6.349999999999999645, 0.000000000000000000 ) ) ;
#228 = DIRECTION ( 'NONE',  ( -1.000000000000000000, -0.000000000000000000, -0.000000000000000000 ) ) ;
#229 = DATE_TIME_ROLE ( 'classification_date' ) ;
#230 = DIRECTION ( 'NONE',  ( 1.000000000000000000, 0.000000000000000000, 0.000000000000000000 ) ) ;
#231 = APPROVAL_PERSON_ORGANIZATION ( #296, #165, #312 ) ;
#232 = ADVANCED_FACE ( 'NONE', ( #185 ), #238, .F. ) ;
#233 = CARTESIAN_POINT ( 'NONE',  ( -1.614212418857619014, 0.000000000000000000, 0.000000000000000000 ) ) ;
#234 = DIRECTION ( 'NONE',  ( 0.000000000000000000, 0.000000000000000000, 1.000000000000000000 ) ) ;
#235 = DIRECTION ( 'NONE',  ( 0.000000000000000000, 0.000000000000000000, 1.000000000000000000 ) ) ;
#236 = AXIS2_PLACEMENT_3D ( 'NONE', #7, #287, #262 ) ;
#237 = DIRECTION ( 'NONE',  ( -1.000000000000000000, -0.000000000000000000, -0.000000000000000000 ) ) ;
#238 = CYLINDRICAL_SURFACE ( 'NONE', #236, 6.349999999999999645 ) ;
#239 = EDGE_CURVE ( 'NONE', #116, #324, #4, .T. ) ;
#240 = CARTESIAN_POINT ( 'NONE',  ( -3.000000000000000000, 0.000000000000000000, 0.000000000000000000 ) ) ;
#241 = MANIFOLD_SOLID_BREP ( 'Ðý×', #314 ) ;
#242 = DIRECTION ( 'NONE',  ( 0.000000000000000000, 0.000000000000000000, 1.000000000000000000 ) ) ;
#243 = CIRCLE ( 'NONE', #255, 12.69999999999999929 ) ;
#244 =( LENGTH_UNIT ( ) NAMED_UNIT ( * ) SI_UNIT ( .MILLI., .METRE. ) );
#245 = ORIENTED_EDGE ( 'NONE', *, *, #199, .F. ) ;
#246 = CIRCLE ( 'NONE', #161, 6.349999999999999645 ) ;
#247 = DATE_AND_TIME ( #69, #21 ) ;
#248 = VERTEX_POINT ( 'NONE', #133 ) ;
#249 = PERSON_AND_ORGANIZATION_ROLE ( 'design_supplier' ) ;
#250 = VERTEX_POINT ( 'NONE', #215 ) ;
#251 = DIRECTION ( 'NONE',  ( -1.000000000000000000, 0.000000000000000000, -0.000000000000000000 ) ) ;
#252 = CC_DESIGN_PERSON_AND_ORGANIZATION_ASSIGNMENT ( #114, #325, ( #300 ) ) ;
#253 = COORDINATED_UNIVERSAL_TIME_OFFSET ( 8, 0, .AHEAD. ) ;
#254 = DIRECTION ( 'NONE',  ( -1.000000000000000000, -0.000000000000000000, -0.000000000000000000 ) ) ;
#255 = AXIS2_PLACEMENT_3D ( 'NONE', #307, #228, #210 ) ;
#256 = CC_DESIGN_APPROVAL ( #156, ( #20 ) ) ;
#257 = APPROVAL_STATUS ( 'not_yet_approved' ) ;
#258 = EDGE_LOOP ( 'NONE', ( #208, #113, #194, #36 ) ) ;
#259 = CARTESIAN_POINT ( 'NONE',  ( -1.500000000000000444, 0.000000000000000000, 0.000000000000000000 ) ) ;
#260 = DIRECTION ( 'NONE',  ( 0.000000000000000000, 0.000000000000000000, 1.000000000000000000 ) ) ;
#261 = AXIS2_PLACEMENT_3D ( 'NONE', #320, #29, #242 ) ;
#262 = DIRECTION ( 'NONE',  ( 0.000000000000000000, 0.000000000000000000, 1.000000000000000000 ) ) ;
#263 = FACE_OUTER_BOUND ( 'NONE', #146, .T. ) ;
#264 = DIRECTION ( 'NONE',  ( 0.000000000000000000, 0.000000000000000000, 1.000000000000000000 ) ) ;
#265 = AXIS2_PLACEMENT_3D ( 'NONE', #129, #177, #67 ) ;
#266 = DIRECTION ( 'NONE',  ( 1.000000000000000000, 0.000000000000000000, 0.000000000000000000 ) ) ;
#267 = EDGE_LOOP ( 'NONE', ( #66, #271 ) ) ;
#268 = DIRECTION ( 'NONE',  ( -1.000000000000000000, -0.000000000000000000, -0.000000000000000000 ) ) ;
#269 = ORIENTED_EDGE ( 'NONE', *, *, #134, .F. ) ;
#270 = CC_DESIGN_APPROVAL ( #165, ( #70 ) ) ;
#271 = ORIENTED_EDGE ( 'NONE', *, *, #239, .T. ) ;
#272 = ORIENTED_EDGE ( 'NONE', *, *, #49, .T. ) ;
#273 = AXIS2_PLACEMENT_3D ( 'NONE', #323, #268, #32 ) ;
#274 = VECTOR ( 'NONE', #212, 1000.000000000000000 ) ;
#275 = PERSON_AND_ORGANIZATION ( #52, #186 ) ;
#276 = CARTESIAN_POINT ( 'NONE',  ( 1.500000000000000444, 6.349999999999999645, 0.000000000000000000 ) ) ;
#277 = PRODUCT_DEFINITION_SHAPE ( 'NONE', 'NONE',  #70 ) ;
#278 = EDGE_CURVE ( 'NONE', #168, #324, #82, .T. ) ;
#279 = FACE_OUTER_BOUND ( 'NONE', #267, .T. ) ;
#280 = APPROVAL_STATUS ( 'not_yet_approved' ) ;
#281 = CARTESIAN_POINT ( 'NONE',  ( -1.500000000000000444, 0.000000000000000000, 0.000000000000000000 ) ) ;
#282 = SECURITY_CLASSIFICATION_LEVEL ( 'unclassified' ) ;
#283 = ORIENTED_EDGE ( 'NONE', *, *, #207, .T. ) ;
#284 = APPROVAL_PERSON_ORGANIZATION ( #157, #172, #332 ) ;
#285 = DIRECTION ( 'NONE',  ( 1.000000000000000000, 0.000000000000000000, 0.000000000000000000 ) ) ;
#286 = DIRECTION ( 'NONE',  ( 0.000000000000000000, 0.000000000000000000, 1.000000000000000000 ) ) ;
#287 = DIRECTION ( 'NONE',  ( -1.000000000000000000, -0.000000000000000000, -0.000000000000000000 ) ) ;
#288 =( GEOMETRIC_REPRESENTATION_CONTEXT ( 3 ) GLOBAL_UNCERTAINTY_ASSIGNED_CONTEXT ( ( #94 ) ) GLOBAL_UNIT_ASSIGNED_CONTEXT ( ( #244, #89, #140 ) ) REPRESENTATION_CONTEXT ( 'NONE', 'WORKASPACE' ) );
#289 = CARTESIAN_POINT ( 'NONE',  ( -2.999999999999999556, 0.000000000000000000, 0.000000000000000000 ) ) ;
#290 = PRODUCT_RELATED_PRODUCT_CATEGORY ( 'detail', '', ( #300 ) ) ;
#291 = CARTESIAN_POINT ( 'NONE',  ( 1.500000000000000888, 0.000000000000000000, 6.349999999999999645 ) ) ;
#292 = DIRECTION ( 'NONE',  ( -1.000000000000000000, -0.000000000000000000, -0.000000000000000000 ) ) ;
#293 = CIRCLE ( 'NONE', #261, 6.349999999999999645 ) ;
#294 = CC_DESIGN_DATE_AND_TIME_ASSIGNMENT ( #102, #72, ( #70 ) ) ;
#295 = SECURITY_CLASSIFICATION ( '', '', #282 ) ;
#296 = PERSON_AND_ORGANIZATION ( #52, #186 ) ;
#297 = DIRECTION ( 'NONE',  ( 0.000000000000000000, 0.000000000000000000, 1.000000000000000000 ) ) ;
#298 = EDGE_LOOP ( 'NONE', ( #48, #245, #145, #272 ) ) ;
#299 = VERTEX_POINT ( 'NONE', #220 ) ;
#300 = PRODUCT ( 'Q-QZWP-R4-12.7-633-M', 'Q-QZWP-R4-12.7-633-M', '', ( #141 ) ) ;
#301 = EDGE_LOOP ( 'NONE', ( #87, #17 ) ) ;
#302 = ORIENTED_EDGE ( 'NONE', *, *, #26, .T. ) ;
#303 = DATE_AND_TIME ( #330, #81 ) ;
#304 = DIRECTION ( 'NONE',  ( -1.000000000000000000, -0.000000000000000000, -0.000000000000000000 ) ) ;
#305 = CC_DESIGN_PERSON_AND_ORGANIZATION_ASSIGNMENT ( #100, #123, ( #20 ) ) ;
#306 = AXIS2_PLACEMENT_3D ( 'NONE', #259, #101, #78 ) ;
#307 = CARTESIAN_POINT ( 'NONE',  ( 3.000000000000000000, 0.000000000000000000, 0.000000000000000000 ) ) ;
#308 = APPROVAL_ROLE ( '' ) ;
#309 = CYLINDRICAL_SURFACE ( 'NONE', #92, 12.69999999999999929 ) ;
#310 = ORIENTED_EDGE ( 'NONE', *, *, #10, .T. ) ;
#311 = CC_DESIGN_DATE_AND_TIME_ASSIGNMENT ( #47, #229, ( #295 ) ) ;
#312 = APPROVAL_ROLE ( '' ) ;
#313 = LINE ( 'NONE', #68, #40 ) ;
#314 = CLOSED_SHELL ( 'NONE', ( #111, #217, #232, #6, #149, #56, #74, #225, #84, #128 ) ) ;
#315 = DIRECTION ( 'NONE',  ( 0.000000000000000000, 0.000000000000000000, 1.000000000000000000 ) ) ;
#316 = CARTESIAN_POINT ( 'NONE',  ( -2.999999999999999556, 0.000000000000000000, 0.000000000000000000 ) ) ;
#317 = CC_DESIGN_PERSON_AND_ORGANIZATION_ASSIGNMENT ( #152, #18, ( #70 ) ) ;
#318 = DIRECTION ( 'NONE',  ( -1.000000000000000000, -0.000000000000000000, -0.000000000000000000 ) ) ;
#319 = LOCAL_TIME ( 9, 24, 9.000000000000000000, #334 ) ;
#320 = CARTESIAN_POINT ( 'NONE',  ( 3.000000000000000888, 0.000000000000000000, 0.000000000000000000 ) ) ;
#321 = FACE_OUTER_BOUND ( 'NONE', #200, .T. ) ;
#322 = CIRCLE ( 'NONE', #137, 6.349999999999999645 ) ;
#323 = CARTESIAN_POINT ( 'NONE',  ( 1.500000000000000888, 0.000000000000000000, 0.000000000000000000 ) ) ;
#324 = VERTEX_POINT ( 'NONE', #31 ) ;
#325 = PERSON_AND_ORGANIZATION_ROLE ( 'design_owner' ) ;
#326 = EDGE_LOOP ( 'NONE', ( #64, #193 ) ) ;
#327 = CIRCLE ( 'NONE', #224, 6.349999999999999645 ) ;
#328 = EDGE_CURVE ( 'NONE', #90, #173, #46, .T. ) ;
#329 = CYLINDRICAL_SURFACE ( 'NONE', #35, 6.349999999999999645 ) ;
#330 = CALENDAR_DATE ( 2020, 23, 12 ) ;
#331 = AXIS2_PLACEMENT_3D ( 'NONE', #222, #297, #266 ) ;
#332 = APPROVAL_ROLE ( '' ) ;
#333 = CARTESIAN_POINT ( 'NONE',  ( 1.500000000000000888, 7.776507174585692163E-16, -6.349999999999999645 ) ) ;
#334 = COORDINATED_UNIVERSAL_TIME_OFFSET ( 8, 0, .AHEAD. ) ;
#335 = ORIENTED_EDGE ( 'NONE', *, *, #190, .T. ) ;
ENDSEC;
END-ISO-10303-21;
